Make your own free website on Tripod.com
Surf Guitar
(Red Fender Jaguar) 
MENU UNFUNCTIONAL AT THIS TIME  
Tabulature
(Baby Blue Fender Stratocaster)
UNDER CONSTRUCTION

** Click Here To Go Back to the Tab Index **

TITLE: Tidal Wave
ARTIST: Slacktone


   tremelo pick this part:
e|-----------------------|
B|-----------------------|
G|-----------------------|
D|-----------------------|
A|-----------------------|
E|-19/18/17/16/15/14/...-|


Part 1:
   E
e|---------------------------------|
B|---------------------------------|
G|---------------------------------|
D|---------------------------------|
A|-----------------------2---2-1-1-| x2
E|-0-0-2-3-0-0-2-3-0-2-3-----------|

   G
e|---------------------------------|
B|---------------------------------|
G|---------------------------------|
D|---------------------------------|
A|-----0-1-----0-1---0-1-5---5-4-4-| x2
E|-3-3-----3-3-----3---------------|

   A#
e|---------------------------------|
B|---------------------------------|
G|---------------------------------|
D|-----------------------3---3-2-2-| x2
A|-1-1-3-4-1-1-3-4-1-3-4-----------|
E|---------------------------------|

   G               A#
e|--------------------------------------|
B|--------------------------------------|
G|-7-7-7-6-6-6-7---10-10-10-11-11-11-10-|
D|-5-5-5-5-5-5-5---8--8--8--8--8--8--8--|
A|--------------------------------------|
E|--------------------------------------|

   B
e|---------------------------------|
B|-4-4-4-4-------------------------|
G|-4-4-4-4-------------------------|
D|-4-4-4-4-------------------------|
A|-2-2-2-2-------------------------|
E|---------------------------------|


Part 2:                        
   E
e|-0-0------------------------0-0--|
B|-5-5-5----------------------0-0--|
G|-------4--4-4--4-5-4-3-4---------|
D|-------------------------5-------| x2
A|---------------------------------|
E|---------------------------------|

   A
e|-/5-5-5--------------------------|
B|--------5--5-5--5-6-5-4-5---3-4--|
G|--------------------------5------|
D|---------------------------------|
A|---------------------------------|
E|---------------------------------|

   E
e|-0-0------------------------0-0--|
B|-5-5-5----------------------0-0--|
G|-------4--4-4--4-5-4-3-4---------|
D|-------------------------5-------|
A|---------------------------------|
E|---------------------------------|

   B
e|-/7-7-7--------------------------|
B|--------7--7-7--7-8-7-8-10-8-7-4-|
G|---------------------------------|
D|---------------------------------|
A|---------------------------------|
E|---------------------------------|

   E                B
e|-0-0-----------------------------|
B|-5-5-5------------4-4-4-4-4-4-4--|
G|-------4--4-4--4--4-4-4-4-4-4-4--|
D|------------------4-4-4-4-4-4-4--|
A|------------------2-2-2-2-2-2-2--|
E|---------------------------------|


Part 3:
   start tremelo picking:
   Em     B      C          B
e|--------------------------------7-|
B|-5--7-8-4--5-7-1--3-1-3-1-0-4-7---|
G|----------------------------------|
D|----------------------------------|
A|----------------------------------|
E|----------------------------------|

   Em     B      C
e|----------------------------------|
B|-5--7-8-4--5-7-1--3-1-3-1---------|
G|----------------------------------|
D|----------------------------------|
A|----------------------------------|
E|----------------------------------|

   B
e|----------------------------------|
B|-0-0-0-0-4-0-8-0-7-0-10-0-12-10---|
G|----------------------------------|
D|----------------------------------|
A|----------------------------------|
E|----------------------------------|

   B
e|----------------------------------|
B|-12---12-10-13-12-----------------|
G|----------------------------------|
D|----------------------------------|
A|----------------------------------|
E|-------------------19/18/17/16/..-|


Repeat Part 1.



Part 4:
   E5
D|-2---|
A|-2---|
E|-0---|

(drum solo)

   Em
e|-0---|
B|-0---|
G|-0---|
D|-2---|
A|-2---|
E|-0---| (I think)



Part 5: (slight variation on part 2)

e|------------------|
B|-15/14/13/12/...--|
G|------------------|
D|------------------|
A|------------------|
E|------------------|

   A
e|-5-5-5---------------------------|
B|-------5--5-5--5-6-5-4-5---3-4---| x2
G|-------------------------5-------|
D|---------------------------------|
A|---------------------------------|
E|---------------------------------|

   E
e|-0-0-----------------------------|
B|-5-5-5---------0-5-0-6-0-7-0-6-0-| x2
G|-------4--4-4--------------------|
D|---------------------------------|
A|---------------------------------|
E|---------------------------------|

   B
e|-/7-7-7--------------------------|
B|--------7--7-7--7-8-7-8-10-8-7-4-|
G|---------------------------------|
D|---------------------------------|
A|---------------------------------|
E|---------------------------------|

   E                B
e|-0-0-----------------------------|
B|-5-5-5------------4-4-4-4-4-4-4--|
G|-------4--4-4--4--4-4-4-4-4-4-4--|
D|------------------4-4-4-4-4-4-4--|
A|------------------2-2-2-2-2-2-2--|
E|---------------------------------|


Repeat Part 3.




Ending:

   tremelo pick this part:
e|-----------------------|
B|-----------------------|
G|-----------------------|
D|-----------------------|
A|-----------------------|
E|-19/18/17/16/15/14/...-|

   Em
e|-0---|
B|-0---|
G|-0---|
D|-2---|
A|-2---|
E|-0---|


  -------------------------------------------------------
  Transcribed by Thor Andersen, salesman@forpresident.com
  http://monstersfrommars.tripod.com/surfguitar/tab.shtml
  -------------------------------------------------------

** Click Here To Go Back to the Tab Index **