Make your own free website on Tripod.com
Surf Guitar
(Red Fender Jaguar) 
MENU UNFUNCTIONAL AT THIS TIME  
Tabulature
(Baby Blue Fender Stratocaster)
UNDER CONSTRUCTION

** Click Here To Go Back to the Tab Index **

TITLE: Surfari
Artist: The Original Surfaris

Apply Tremelo picking pretty much throughout.  There are some parts
where he slides up from the last note and I did not tab it.  Just
listen for it.

I've included the basslines under the guitar parts.

Intro:
                                         Em
e|-----------------------------------------------|
B|-----------------------------------------------|
G|-----------------------------------------------|
D|-----------------------------------------------|
A|-----------------------------------------------|
E|-12/--7---7-7-5---5-5-3---3-3-2---2-2--0-0-0-0-|

                                Bassline for intro:
                                         Em
                                      G|---------|
                                      D|---------|
                                      A|-----2---|
                                      E|-0-3---3-| x2


Verse on Low E String:
   Em                     Em         B
e|---------------|     e|--------------------|
B|---------------|     B|--------------------|
G|---------------|     G|--------------------|
D|---------------|     D|--------------------|
A|---------------|     A|--------------------|
E|-0--2-3--2-3-2-| x2  E|-0--2-3-2-0-7-7-7-7-|

   C                   B
e|-------------------------------|
B|-------------------------------|
G|-------------------------------|
D|-------------------------------|
A|-------------------------------|
E|-8-8-7-5-7-8-8-7-5-3-2-2-2-2-2-|

The Bassline for the verse:
   Em               B
G|---------|     G|---------|
D|---------|     D|---------|
A|-----2---|     A|-----2---|     
E|-0-3---3-| x3  E|-0-3---3-|

   C               B
G|-------------------------------|
D|---2-5-2---2-5-2---------------|
A|-3-------3-------2-2-2-2-2-2-2-|
E|-------------------------------|

and like every other time during the pause, the bass does:
G|-------|
D|-------|
A|-0-----|
E|---3-2-|


Post Verse:
         Em
e|--------------|
B|--------------|
G|--------------|
D|--------------|
A|--------------|
E|-3-2-3-0--0-0-|  x 4

Bassline for post verse:
         Em
      G|---------|
      D|---------|
      A|-----2---|
      E|-0-3---3-| x4



Verse on High E String:

e|-3/-|

   Em                     Em         B
e|-0--2-3--2-3-2-| x2  E|-0--2-3-2-0-7-7-7-7-|
B|---------------|     B|--------------------|
G|---------------|     G|--------------------|
D|---------------|     D|--------------------|
A|---------------|     A|--------------------|
E|---------------|     e|--------------------|

   C                   B
e|-8-8-7-5-7-8-8-7-5-3-2-2-2-2-2-|
B|-------------------------------|
G|-------------------------------|
D|-------------------------------|
A|-------------------------------|
E|-------------------------------|


Repeat Post Verse.

Repeat Verse on Low E String.

Repeat Post Verse, excet x2 instead of x4.


Chorus 1:
e|----------------|
B|----------------|
G|----------------|
D|-------4--7--9--|
A|-2--5-----------|  x 2
E|----------------|

e|-----------------------------------|
B|-----------------------------------|
G|-----------------------------------|
D|-----------------------------------|
A|-----------------------------------|
E|-5--6-5-3--5--6-5-3--7-7-7-7-7-7-7-|

Chorus Bassline is something like this
althoug I'm not sure:
G|---------------------------------|
D|---1-4-1---2-5-2---1-4-1---1-4-1-|
A|-2-------3-------2-------2-------| x 2
E|---------------------------------|

G|---------------------------|
D|-----2-------2-----1-2-3-4-|
A|-0-3---3-0-3---3-2---------|
E|---------------------------|


Repeat Post Verse.

Sax Solo is an improvised version of the verse.

Repeat Post Verse, excet x2 instead of x4.


Chorus 2:
e|----------------|
B|----------------|
G|----------------|
D|-------4--7--9--|
A|-2--5-----------|  x 2
E|----------------|

e|-5--6-5-3--5--6-5-3--7-7-7-7-7-7-7-|
B|-----------------------------------|
G|-----------------------------------|
D|-----------------------------------|
A|-----------------------------------|
E|-----------------------------------|


Repeat Post Verse, but play the first three notes on the
high E string instead of the low E string.

Repeat Verse on Low E string.

Repeat Post Verse.

Ending:
                                    Em
e|----------------------------------0~--|
B|----------------------------------0~--|
G|----------------------------------0~--|
D|----------------------------------2~--|
A|----------------------------------2~--|
E|-7---7-7-5---5-5-3---3-3--2---2-2-0~--|


  -------------------------------------------------------
  Transcribed by Thor Andersen, salesman@forpresident.com
  http://monstersfrommars.tripod.com/surfguitar/tab.shtml
  -------------------------------------------------------

** Click Here To Go Back to the Tab Index **