Make your own free website on Tripod.com
Surf Guitar
(Red Fender Jaguar) 
MENU UNFUNCTIONAL AT THIS TIME  
Tabulature
(Baby Blue Fender Stratocaster)
UNDER CONSTRUCTION

** Click Here To Go Back to the Tab Index **

TITLE: Squad Car
Artist: Eddie and the Showmen

Listen to the song for the rythem.
Any corrections are greatly appreciated.  Thanks.

e|------|
A|------|
D|------|
G|------|
B|-19/--|
E|------|

   Am                   C       G   Am
e|--------------------------------------|
A|--------------------------------------|
D|--------------------------------------|
G|--------------------------------------|
B|-0-0---0-2---0------2-3-3-2-0---2-0---|
E|-----3-----3------------------3-------|  x 2

tremelo pick:
e|-----|
A|-----|
D|-----|
G|-----|
B|-19/-|
E|-----|

   Am                              Dm
e|-----------------------------------------------------------------|
A|-----------------------------------------------------------------|
D|-----------------------------------------2-2-2-----------2-2-2---|
G|---------2-2-2-----------2-2-2---0-0-0-3-------3-0-0-0-3-------3-|
B|-0-0-0-3-------3-0-0-0-3-------3---------------------------------|
E|-----------------------------------------------------------------|

   E                                   Am
e|---------------------------------------------------|
A|---------------------------------------------------|
D|---------------------------------------------------|
G|-2---2-2---2-2-2-2---2-2---2-2-0-------------------|
B|---------------------------------3-2-0-0---0-2---0-|
E|-----------------------------------------3-----3---|


e|-5-5-5-5-5-5-7-8-7-5--5-5-5-7-8-7-5--4-4-4-5-7-5-4--5-5-5-7-8-7-5-|
A|-5-5-5-6-6-6-6-6-6-6--5-5-5-5-5-5-5--5-5-5-5-5-5-5--5-5-5-5-5-5-5-|
D|------------------------------------------------------------------|
G|------------------------------------------------------------------|
B|------------------------------------------------------------------|
E|------------------------------------------------------------------|
  (second time through you repeat this last part 2 times)

e|-5-5-5-5-5-5-7-8-7-5--5-5-5-7-8-7-5--4-4-4-4-0-0-0-|
A|-5-5-5-6-6-6-6-6-6-6--5-5-5-5-5-5-5--5-5-5-3-0-1-1-| (or something
D|-----------------------------------------------2-2-|   like that)
G|-----------------------------------------------2-2-|
B|---------------------------------------------------|
E|---------------------------------------------------|

and then repeat the whole thing!


  -------------------------------------------------------
  Transcribed by Thor Andersen, salesman@forpresident.com
  http://monstersfrommars.tripod.com/surfguitar/tab.shtml
  -------------------------------------------------------

** Click Here To Go Back to the Tab Index **