Make your own free website on Tripod.com
Surf Guitar
(Red Fender Jaguar) 
MENU UNFUNCTIONAL AT THIS TIME  
Tabulature
(Baby Blue Fender Stratocaster)
UNDER CONSTRUCTION

** Click Here To Go Back to the Tab Index **

NAME: Russian Roulette AKA Surfbound
Artist: Nevegans

Intro:
   Am               Am
e|---------|     e|---------|   
B|---------|     B|---------|   
G|---------|     G|---------|   
D|---2-0---|     D|---2-0---|   
A|-0-----3-| x7  A|-0-------|
E|---------|     E|---------|   


Verse:
      Am             G             Am        G
e|--------------------------------------------------------|
B|--------------------------------------------------------|
G|--------------------------------------------------------|
D|-2/-7--7-7--10-9-7-9---------9---7------7--5--5-5-5-5-5-|
A|---------------------10-10-10-10---7-7-7-7--------------|
E|--------------------------------------------------------|

   F            E
e|----------------------|
B|----------------------|
G|----------------------|
D|-3--------3---2-0-----|
A|---3-3--3---3-----3-2-|
E|----------------------|

   Am               Am
e|---------|     e|---------|   
B|---------|     B|---------|   
G|---------|     G|---------|   
D|---2-0---|     D|---2-0---|   
A|-0-----3-| x3  A|-0-------|
E|---------|     E|---------|   


Chorus:
      Am                 G
e|-5/-8-----------8------7-7--------------|
B|------10-----10---10-------8-8----------|
G|---------9---------------------7-7------|
D|-----------------------------------9-9--|
A|----------------------------------------|
E|----------------------------------------|

   F                E
e|-5----------5-------------4-4-5-5--|
B|---6------6---6---5-5-6-6----------|
G|-----5-----------------------------|
D|-----------------------------------|
A|-----------------------------------|
E|-----------------------------------|

      Am                 G
e|-5/-8-----------8------7-7--------------|
B|------10-----10---10-------8-8----------|
G|---------9---------------------7-7------|
D|-----------------------------------9-9--|
A|----------------------------------------|
E|----------------------------------------|

   F                      E
e|-5----------5----|   e|-4-5-4-------4-5-4---------|
B|---6------6---6--|   B|-------6-5-6-------6-5-6-5-|  x 2
G|-----5-----------|   G|---------------------------|
D|-----------------|   D|---------------------------| Hey!
A|-----------------|   A|---------------------------|
E|-----------------|   E|---------------------------|

   E
e|---------|
B|-5-5-5/0-|
G|---------|
D|---------|
A|---------|
E|---------|

   Am               Am
e|---------|     e|---------|   
B|---------|     B|---------|   
G|---------|     G|---------|   
D|---2-0---|     D|---2-0---|   
A|-0-----3-| x3  A|-0-------|
E|---------|     E|---------|   


  -------------------------------------------------------
  Transcribed by Thor Andersen, salesman@forpresident.com
  http://monstersfrommars.tripod.com/surfguitar/tab.shtml
  -------------------------------------------------------

** Click Here To Go Back to the Tab Index **