Make your own free website on Tripod.com
Surf Guitar
(Red Fender Jaguar) 
MENU UNFUNCTIONAL AT THIS TIME  
Tabulature
(Baby Blue Fender Stratocaster)
UNDER CONSTRUCTION

** Click Here To Go Back to the Tab Index **

Title: Mar Gaya
Artist: The Fender IV

Tune your low E string down to D.
He slides into some of the notes, just listen for that
because I didn't feel like tabbing it out.

     D   D#  D   D#  D   D#  D   D#
e|------------------------------------|
B|-----7---8---7---8---7---8---7---8--|
G|-----7---8---7---8---7---8---7---8--|
d|-----7---8---7---8---7---8---7---8--|
A|-4/5-5---6---5---6---5---6---5---6--|
D|------------------------------------|

  Apply Tremelo picking where needed.

   D    D#    D   D#D D#       D
e|--------------------------------|
B|--------------------------------|
G|--------------------------------|
d|-7----8-7-5-7---8-7-5----4-5-4--|
A|--------------------------------|
D|--------------------------------|

   D    D#    D   D#D D#        D
e|--------------------------------|
B|--------------------------------|
G|--------------------------------|
d|-7----8-7-5-7---8-7-5------5----|
A|-------------------------6--6-5-|
D|--------------------------------|

   D  D# D# D  D  D# D# D  D D# D D# D D# D D#
e|--------------------------------|
B|--------------------------------|
G|-------------------------7------|
d|-------------------8--7---------|
A|-------1--0--5--6---------------|
D|-0--1---------------------------|

   G  G# G# G  G  G# G# G  G G# G G# G G# G G#
e|--------------------------------|
B|-------------------------8------|
G|-------------------8--7---------|
d|-------------5--6---------------|
A|-------6--5---------------------|
D|-5--6---------------------------|

   C    C#    C   C#C C#       C
e|--------------------------------|
B|--------------------------------|
G|--------------------------------|
d|-5----6-5-3-5---6-5-3----2-3-2--|
A|--------------------------------|
D|--------------------------------|

   C    C#    C   C#C C#       C
e|--------------------------------|
B|--------------------------------|
G|--------------------------------|
d|-5----6-5-3-5---6-5-3------3----|
A|-------------------------4--4-3-|
D|--------------------------------|


  G G# G G# G   G#  G   G#
e|--------------------3---4--|
B|------------3---4---3---4--|
G|------------4---5---4---5--|
d|------------5---6---5---6--|
A|---------------------------|
D|---------------------------|

   G  G# G# G  G  G# G# G  G G# G G# G G# G G#
e|--------------------------------|
B|-------------------------8------|
G|-------------------8--7---------|
d|-------------5--6---------------|
A|-------6--5---------------------|
D|-5--6---------------------------|

   C  C# C# C  C  C# C# C  C C# C C# C C# C C#
e|-------------------------8------|
B|-------------------9--8---------|
G|-------------5--6---------------|
d|-------6--5---------------------|
A|-3--4---------------------------|
D|--------------------------------|

   F    F#    F   F#F F#       F
e|--------------------------------|
B|--------------------------------|
G|-5----6-5-3-5---6-5-3----2-3-2--|
d|--------------------------------|
A|--------------------------------|
D|--------------------------------|

   F    F#    F   F#F F#        F
e|--------------------------------|
B|--------------------------------|
G|-5----6-5-3-5---6-5-3------3----|
d|-------------------------4--4-3-|
A|--------------------------------|
D|--------------------------------|

   F    F#    F   F#F F#       F
e|--------------------------------|
B|--------------------------------|
G|--------------------------------|
d|--------------------------------|
A|-3----4-3-1-3---4-3-1----0-1-0--|
D|--------------------------------|

   F    F#    F   F#F F#        F
e|--------------------------------|
B|--------------------------------|
G|--------------------------------|
d|--------------------------------|
A|-3----4-3-1-3---4-3-1------1----|
D|-------------------------4--4-3-|


  -------------------------------------------------------
  Transcribed by Thor Andersen, salesman@forpresident.com
  http://monstersfrommars.tripod.com/surfguitar/tab.shtml
  -------------------------------------------------------

** Click Here To Go Back to the Tab Index **