Make your own free website on Tripod.com
Surf Guitar
(Red Fender Jaguar) 
MENU UNFUNCTIONAL AT THIS TIME  
Tabulature
(Baby Blue Fender Stratocaster)
UNDER CONSTRUCTION

** Click Here To Go Back to the Tab Index **

"THE HEARSE" as recorded by The Astronauts

Transcribed by Thor Andersen
salesman@forpresident.com
http://monstersfrommars.tripod.com

Thanks to CMG (cgansheimer@comcast.net) for
corrections on the chords.


Intro: rythem does E

Verse 1:

    D                               Em
e|--------------------------------------7---|
B|--7-7-7-7---5-----7-7-7-7---5--------8----|
G|--------------7---------------7-----9-----|
D|-----------------------------------9------|
A|----------------------------------7-------|
E|------------------------------------------|


    D                               G
e|------------------------------------------|
B|--7-7-7-7---5-----7-7-7-7---5-------12----|
G|--------------7---------------7----12-----|
D|----------------------------------12------|
A|---------------------------------10-------|
E|------------------------------------------|


    G               D 
e|--7-7-7-7---5-----5-5-------|
B|--------------8-------7-----|
G|------------------------7---|
D|----------------------------|
A|----------------------------|
E|----------------------------|


    G               Em
e|----------------------------------|
B|--8-8-8-8---5-----8-8-8-8---5-----|
G|--------------4---------------4---|
D|----------------------------------|
A|----------------------------------|
E|----------------------------------|


    G               D              Em
e|------------5-7---5-5-5-5---7-8------7---|
B|--8-8-8-8---------------------------8----|
G|-----------------------------------9-----|
D|----------------------------------9------|
A|---------------------------------7-------|
E|-----------------------------------------|


    Em
Tremelo Pick:
E|--12/11/10/9/8/7/6/5/4/3/2/1/0-|


Repeat Verse 1.


Verse 2:

    D                              Em    
e|--------------------------------------0---|
B|-------------------------------------0----|
G|------------------------------------0-----|
D|--4-4-4-4---2-0---4-4-4-4---2-0----2------|
A|----------------------------------2-------|
E|---------------------------------0--------|


    D                              G
e|---------------------------------3---|
B|---------------------------------3----|
G|---------------------------------4-----|
D|--4-4-4-4---2-0---4-4-4-4---2-0--5------|
A|---------------------------------5-------|
E|---------------------------------3--------|


    G               A    
e|----------------------------|
B|----------------------------|
G|--4-4-4-4---2-0---2-2-------|
D|----------------------4-0---|
A|----------------------------|
E|----------------------------|


    G               Em    
e|----------------------------------|
B|----------------------------------|
G|----------------------------------|
D|--5-5-5-5---2-----5-5-5-5---2-----|
A|--------------2---------------2---|
E|----------------------------------|


    G               D              Em    
e|--------------------------------------0--|
B|-------------------------------------0---|
G|------------------------------------0----|
D|-----------------------------------2-----|
A|------------0-2---0-0-0-0---2-3---2------|
E|--3-3-3-3------------------------0-------|


    E
Tremelo Pick:
E|--12/11/10/9/8/7/6/5/4/3/2/1/0-|


Then Repeat Verse 1 again.

Any corrections are greatly welcomed.


  -------------------------------------------------------
  Transcribed by Thor Andersen, salesman@forpresident.com
  http://monstersfrommars.tripod.com/surfguitar/tab.shtml
  -------------------------------------------------------

Thanks to CMG (cgansheimer@comcast.net) for
corrections on the chords.

** Click Here To Go Back to the Tab Index **