Make your own free website on Tripod.com
Surf Guitar
(Red Fender Jaguar) 
MENU UNFUNCTIONAL AT THIS TIME  
Tabulature
(Baby Blue Fender Stratocaster)
UNDER CONSTRUCTION

** Click Here To Go Back to the Tab Index **

Title: Goochi Bamba
Artist: Richie Allen (Pololar)

Everything's tuned down a half step.


Eb|-------------------------------------------|
Bb|-------------------------------------------|
Gb|-------------------------------------------|
Db|--------------3-2-0------------------------|
Ab|-0--0-3--0-0--------3-2-0--0-3---0------2--|
Eb|-----------------------------------0--3----|

Eb|---------------------------------------------|
Bb|---------------------------------------------|
Gb|-------------------------------------------2-|
Db|---------------------------3-2-0---------2---|
Ab|------2-2----------2-2-----------3-2-0-3-----|
Eb|-0--3----3-3-0-0-3-----3-0-------------------|

The bassline is the same thing as above.

Eb|-5-----8---5-----8---10----8---5--|
Bb|-5-----8---5-----8---10----8---5--|
Gb|-5-----9---5-----9---11----9---5--|
Db|-7-----10--7-----10--12----10--7--|
Ab|-7-----10--7-----10--12----10--7--|
Eb|-5-----8---5-----8---10----8---5--|

Eb|----------------------------------|
Bb|----------------------------------|
Gb|-2-----5---2-----5---7-----5---2--|
Db|-2-----5---2-----5---7-----5---2--|
Ab|-0-----3---0-----3---5-----3---0--|
Eb|----------------------------------|

GOOCHI BAMBA!


  -------------------------------------------------------
  Transcribed by Thor Andersen, salesman@forpresident.com
  http://monstersfrommars.tripod.com/surfguitar/tab.shtml
  -------------------------------------------------------

** Click Here To Go Back to the Tab Index **