Make your own free website on Tripod.com
Surf Guitar
(Red Fender Jaguar) 
MENU UNFUNCTIONAL AT THIS TIME  
Tabulature
(Baby Blue Fender Stratocaster)
UNDER CONSTRUCTION

** Click Here To Go Back to the Tab Index **

TITLE: Banzai Washout
Artist: Dick Dale
Written by Steve Douglas

PM = Palm Mute (down stroke)
US = Up Stroke (palm muted too I think)

Apply tremelo picking where needed.

Intro:
   Em      G       F#      B       Em
e|-0-------3-------2-------7-------0-------|
B|-0-------3-------2-------7-------0-------|
G|-0-------4-------3-------8-------0-------|
D|-2-------5-------4-------9-------2-------| 
A|-2-------5-------4-------9-------2-------| 
E|-0-------3-------2-------7-------0-------|


Main Riff:
       Em
e|------------------------------------|
B|------------------------------------|
G|------------------------------------|
D|------------------------------------|
A|-17/---------------------2-2-0---2--|
E|-----0-0-0-0-2-3-0-0-0-3-------3----|

   Am
e|-----------------------------------|
B|-----------------------------------|
G|-----------------------------------|
D|----------------------2-2-0---0-2--|
A|-0-0-0--0-2-3-0-0-0-3-------3------|
E|-----------------------------------|

   B         C                    B
     *US  *US  *US  *US
e|---7----7----8----8---|      e|-7-------|
B|---7----7----8----8---|      B|-7-------|
G|---8----8----9----9---|      G|-8-------| 
D|-9-9--9-9--10---10----|      D|-9-------|
A|-9----9----10---10----|      A|-9-------|
E|-7----7----8----8-----| x 3  E|-7--12/--|
   *PM  *PM  *PM  *PM


Repeat Main Riff.

Bridge:
   Em      G       C       B
e|-0-------3-------8----8----7----7----7--7--7-7-7-7-|
B|-0-------3-------8----8----7----7----7--7--7-7-7-7-|
G|-0-------4-------9----9----8----8----8--8--8-8-8-8-|
D|-2-------5-------10---10---9----9----9--9--9-9-9-9-|
A|-2-------5-------10---10---9----9----9--9--9-9-9-9-|
E|-0-------3-------8----8----7----7----7--7--7-7-7-7-|


Then comes the solo and I don't even want to figure it out because
I don't like it.  Make up your own.

Repeat Main Riff.

Ending:
E|-0-0-0-0-0-0-0-0-0-0-0-2-3-0-| x whatever into fadeout.


  -------------------------------------------------------
  Transcribed by Thor Andersen, salesman@forpresident.com
  http://monstersfrommars.tripod.com/surfguitar/tab.shtml
  -------------------------------------------------------

** Click Here To Go Back to the Tab Index **